ISO-10303-21;
HEADER;
FILE_DESCRIPTION (( 'STEP AP214' ),
    '1' );
FILE_NAME ('GDK110-9-18Z-2.2-4.4.STEP',
    '2024-07-26T05:32:14',
    ( '00' ),
    ( '' ),
    'SwSTEP 2.0',
    'SolidWorks 2018',
    '' );
FILE_SCHEMA (( 'AUTOMOTIVE_DESIGN' ));
ENDSEC;

DATA;
#1 = CIRCLE ( 'NONE', #226, 55.00000000000000000 ) ;
#2 = EDGE_LOOP ( 'NONE', ( #165, #14, #134, #294 ) ) ;
#3 = DIRECTION ( 'NONE',  ( -0.000000000000000000, -0.000000000000000000, -1.000000000000000000 ) ) ;
#4 = PLANE ( 'NONE',  #171 ) ;
#5 = EDGE_CURVE ( 'NONE', #273, #204, #76, .T. ) ;
#6 = PRESENTATION_STYLE_ASSIGNMENT (( #276 ) ) ;
#7 = CARTESIAN_POINT ( 'NONE',  ( 0.000000000000000000, 0.000000000000000000, 11.99999999999999645 ) ) ;
#8 = LINE ( 'NONE', #265, #306 ) ;
#9 =( GEOMETRIC_REPRESENTATION_CONTEXT ( 3 ) GLOBAL_UNCERTAINTY_ASSIGNED_CONTEXT ( ( #194 ) ) GLOBAL_UNIT_ASSIGNED_CONTEXT ( ( #319, #168, #18 ) ) REPRESENTATION_CONTEXT ( 'NONE', 'WORKASPACE' ) );
#10 = SURFACE_STYLE_USAGE ( .BOTH. , #193 ) ;
#11 = FILL_AREA_STYLE_COLOUR ( '', #260 ) ;
#12 = CARTESIAN_POINT ( 'NONE',  ( 0.000000000000000000, 0.000000000000000000, 55.99999999999999289 ) ) ;
#13 = CARTESIAN_POINT ( 'NONE',  ( 55.00000000000000000, 6.735557395310442615E-15, 12.00000000000000000 ) ) ;
#14 = ORIENTED_EDGE ( 'NONE', *, *, #256, .T. ) ;
#15 = MECHANICAL_DESIGN_GEOMETRIC_PRESENTATION_REPRESENTATION (  '', ( #34 ), #147 ) ;
#16 = DIRECTION ( 'NONE',  ( -1.000000000000000000, 0.000000000000000000, 0.000000000000000000 ) ) ;
#17 =( GEOMETRIC_REPRESENTATION_CONTEXT ( 3 ) GLOBAL_UNCERTAINTY_ASSIGNED_CONTEXT ( ( #241 ) ) GLOBAL_UNIT_ASSIGNED_CONTEXT ( ( #187, #143, #87 ) ) REPRESENTATION_CONTEXT ( 'NONE', 'WORKASPACE' ) );
#18 =( NAMED_UNIT ( * ) SI_UNIT ( $, .STERADIAN. ) SOLID_ANGLE_UNIT ( ) );
#19 = UNCERTAINTY_MEASURE_WITH_UNIT (LENGTH_MEASURE( 1.000000000000000082E-05 ), #144, 'distance_accuracy_value', 'NONE');
#20 = VERTEX_POINT ( 'NONE', #301 ) ;
#21 = MECHANICAL_DESIGN_GEOMETRIC_PRESENTATION_REPRESENTATION (  '', ( #122 ), #125 ) ;
#22 = SURFACE_STYLE_FILL_AREA ( #190 ) ;
#23 =( NAMED_UNIT ( * ) SI_UNIT ( $, .STERADIAN. ) SOLID_ANGLE_UNIT ( ) );
#24 = PLANE ( 'NONE',  #70 ) ;
#25 = PRESENTATION_LAYER_ASSIGNMENT (  '', '', ( #157 ) ) ;
#26 = DIRECTION ( 'NONE',  ( -0.000000000000000000, -0.000000000000000000, -1.000000000000000000 ) ) ;
#27 = CIRCLE ( 'NONE', #264, 55.00000000000000000 ) ;
#28 = CIRCLE ( 'NONE', #86, 42.50000000000000711 ) ;
#29 = DIRECTION ( 'NONE',  ( 1.000000000000000000, 0.000000000000000000, -0.000000000000000000 ) ) ;
#30 = MECHANICAL_DESIGN_GEOMETRIC_PRESENTATION_REPRESENTATION (  '', ( #199 ), #9 ) ;
#31 = CARTESIAN_POINT ( 'NONE',  ( -42.50000000000000711, 0.000000000000000000, 55.99999999999999289 ) ) ;
#32 = ADVANCED_FACE ( 'NONE', ( #36, #131 ), #4, .T. ) ;
#33 = DIRECTION ( 'NONE',  ( 0.000000000000000000, 0.000000000000000000, 1.000000000000000000 ) ) ;
#34 = STYLED_ITEM ( 'NONE', ( #177 ), #254 ) ;
#35 = CARTESIAN_POINT ( 'NONE',  ( 0.000000000000000000, 0.000000000000000000, 0.000000000000000000 ) ) ;
#36 = FACE_OUTER_BOUND ( 'NONE', #52, .T. ) ;
#37 = PLANE ( 'NONE',  #90 ) ;
#38 = EDGE_CURVE ( 'NONE', #160, #184, #28, .T. ) ;
#39 =( NAMED_UNIT ( * ) SI_UNIT ( $, .STERADIAN. ) SOLID_ANGLE_UNIT ( ) );
#40 =( NAMED_UNIT ( * ) SI_UNIT ( $, .STERADIAN. ) SOLID_ANGLE_UNIT ( ) );
#41 = PRESENTATION_LAYER_ASSIGNMENT (  '', '', ( #34 ) ) ;
#42 = DIRECTION ( 'NONE',  ( -0.000000000000000000, -0.000000000000000000, -1.000000000000000000 ) ) ;
#43 = VECTOR ( 'NONE', #26, 1000.000000000000000 ) ;
#44 = ORIENTED_EDGE ( 'NONE', *, *, #316, .T. ) ;
#45 = CARTESIAN_POINT ( 'NONE',  ( 0.000000000000000000, 0.000000000000000000, 0.000000000000000000 ) ) ;
#46 =( NAMED_UNIT ( * ) PLANE_ANGLE_UNIT ( ) SI_UNIT ( $, .RADIAN. ) );
#47 = ORIENTED_EDGE ( 'NONE', *, *, #164, .T. ) ;
#48 = APPLICATION_PROTOCOL_DEFINITION ( 'draft international standard', 'automotive_design', 1998, #95 ) ;
#49 = UNCERTAINTY_MEASURE_WITH_UNIT (LENGTH_MEASURE( 1.000000000000000082E-05 ), #167, 'distance_accuracy_value', 'NONE');
#50 = ADVANCED_BREP_SHAPE_REPRESENTATION ( 'GDK110-9-18Z-2.2-4.4', ( #223, #71 ), #83 ) ;
#51 = CYLINDRICAL_SURFACE ( 'NONE', #323, 42.50000000000000711 ) ;
#52 = EDGE_LOOP ( 'NONE', ( #94, #288 ) ) ;
#53 = PRESENTATION_LAYER_ASSIGNMENT (  '', '', ( #199 ) ) ;
#54 = AXIS2_PLACEMENT_3D ( 'NONE', #325, #227, #224 ) ;
#55 = FILL_AREA_STYLE_COLOUR ( '', #169 ) ;
#56 = CIRCLE ( 'NONE', #137, 55.00000000000000000 ) ;
#57 =( GEOMETRIC_REPRESENTATION_CONTEXT ( 3 ) GLOBAL_UNCERTAINTY_ASSIGNED_CONTEXT ( ( #191 ) ) GLOBAL_UNIT_ASSIGNED_CONTEXT ( ( #162, #186, #39 ) ) REPRESENTATION_CONTEXT ( 'NONE', 'WORKASPACE' ) );
#58 = FILL_AREA_STYLE_COLOUR ( '', #130 ) ;
#59 = DIRECTION ( 'NONE',  ( 1.000000000000000000, 0.000000000000000000, -0.000000000000000000 ) ) ;
#60 = MECHANICAL_DESIGN_GEOMETRIC_PRESENTATION_REPRESENTATION (  '', ( #195 ), #248 ) ;
#61 = DIRECTION ( 'NONE',  ( -1.000000000000000000, 0.000000000000000000, 0.000000000000000000 ) ) ;
#62 = CARTESIAN_POINT ( 'NONE',  ( 42.50000000000000711, 5.204748896376252474E-15, 55.99999999999999289 ) ) ;
#63 = ORIENTED_EDGE ( 'NONE', *, *, #75, .T. ) ;
#64 = FILL_AREA_STYLE ('',( #58 ) ) ;
#65 = FILL_AREA_STYLE_COLOUR ( '', #149 ) ;
#66 = CYLINDRICAL_SURFACE ( 'NONE', #242, 42.50000000000000711 ) ;
#67 = FILL_AREA_STYLE_COLOUR ( '', #93 ) ;
#68 = VERTEX_POINT ( 'NONE', #104 ) ;
#69 =( NAMED_UNIT ( * ) SI_UNIT ( $, .STERADIAN. ) SOLID_ANGLE_UNIT ( ) );
#70 = AXIS2_PLACEMENT_3D ( 'NONE', #258, #33, #29 ) ;
#71 = AXIS2_PLACEMENT_3D ( 'NONE', #216, #92, #146 ) ;
#72 = DIRECTION ( 'NONE',  ( -1.000000000000000000, 0.000000000000000000, 0.000000000000000000 ) ) ;
#73 = STYLED_ITEM ( 'NONE', ( #200 ), #234 ) ;
#74 = PRESENTATION_STYLE_ASSIGNMENT (( #309 ) ) ;
#75 = EDGE_CURVE ( 'NONE', #273, #20, #313, .T. ) ;
#76 = CIRCLE ( 'NONE', #54, 55.00000000000000000 ) ;
#77 = COLOUR_RGB ( '',1.000000000000000000, 1.000000000000000000, 1.000000000000000000 ) ;
#78 = ORIENTED_EDGE ( 'NONE', *, *, #142, .F. ) ;
#79 = SURFACE_SIDE_STYLE ('',( #218 ) ) ;
#80 = ORIENTED_EDGE ( 'NONE', *, *, #38, .F. ) ;
#81 = STYLED_ITEM ( 'NONE', ( #153 ), #232 ) ;
#82 =( LENGTH_UNIT ( ) NAMED_UNIT ( * ) SI_UNIT ( .MILLI., .METRE. ) );
#83 =( GEOMETRIC_REPRESENTATION_CONTEXT ( 3 ) GLOBAL_UNCERTAINTY_ASSIGNED_CONTEXT ( ( #19 ) ) GLOBAL_UNIT_ASSIGNED_CONTEXT ( ( #144, #123, #148 ) ) REPRESENTATION_CONTEXT ( 'NONE', 'WORKASPACE' ) );
#84 = DIRECTION ( 'NONE',  ( -0.000000000000000000, -0.000000000000000000, -1.000000000000000000 ) ) ;
#85 = SURFACE_STYLE_FILL_AREA ( #108 ) ;
#86 = AXIS2_PLACEMENT_3D ( 'NONE', #252, #3, #179 ) ;
#87 =( NAMED_UNIT ( * ) SI_UNIT ( $, .STERADIAN. ) SOLID_ANGLE_UNIT ( ) );
#88 = ORIENTED_EDGE ( 'NONE', *, *, #142, .T. ) ;
#89 = CARTESIAN_POINT ( 'NONE',  ( 0.000000000000000000, 0.000000000000000000, 12.00000000000000000 ) ) ;
#90 = AXIS2_PLACEMENT_3D ( 'NONE', #35, #305, #59 ) ;
#91 = SURFACE_STYLE_USAGE ( .BOTH. , #192 ) ;
#92 = DIRECTION ( 'NONE',  ( 0.000000000000000000, 0.000000000000000000, 1.000000000000000000 ) ) ;
#93 = COLOUR_RGB ( '',0.7921568627450980005, 0.8196078431372548767, 0.9333333333333333481 ) ;
#94 = ORIENTED_EDGE ( 'NONE', *, *, #213, .F. ) ;
#95 = APPLICATION_CONTEXT ( 'automotive_design' ) ;
#96 = FACE_OUTER_BOUND ( 'NONE', #283, .T. ) ;
#97 = MECHANICAL_DESIGN_GEOMETRIC_PRESENTATION_REPRESENTATION (  '', ( #157 ), #116 ) ;
#98 = COLOUR_RGB ( '',1.000000000000000000, 1.000000000000000000, 1.000000000000000000 ) ;
#99 = MECHANICAL_DESIGN_GEOMETRIC_PRESENTATION_REPRESENTATION (  '', ( #81 ), #324 ) ;
#100 = ORIENTED_EDGE ( 'NONE', *, *, #5, .T. ) ;
#101 = FILL_AREA_STYLE_COLOUR ( '', #98 ) ;
#102 = UNCERTAINTY_MEASURE_WITH_UNIT (LENGTH_MEASURE( 1.000000000000000082E-05 ), #205, 'distance_accuracy_value', 'NONE');
#103 = STYLED_ITEM ( 'NONE', ( #173 ), #127 ) ;
#104 = CARTESIAN_POINT ( 'NONE',  ( -55.00000000000000000, 0.000000000000000000, 0.000000000000000000 ) ) ;
#105 = SURFACE_STYLE_FILL_AREA ( #113 ) ;
#106 = VECTOR ( 'NONE', #111, 1000.000000000000000 ) ;
#107 = AXIS2_PLACEMENT_3D ( 'NONE', #235, #84, #61 ) ;
#108 = FILL_AREA_STYLE ('',( #209 ) ) ;
#109 = PRODUCT ( 'GDK110-9-18Z-2.2-4.4', 'GDK110-9-18Z-2.2-4.4', '', ( #219 ) ) ;
#110 = SURFACE_STYLE_FILL_AREA ( #315 ) ;
#111 = DIRECTION ( 'NONE',  ( -0.000000000000000000, -0.000000000000000000, -1.000000000000000000 ) ) ;
#112 = FILL_AREA_STYLE ('',( #65 ) ) ;
#113 = FILL_AREA_STYLE ('',( #11 ) ) ;
#114 = FACE_OUTER_BOUND ( 'NONE', #2, .T. ) ;
#115 = LINE ( 'NONE', #304, #106 ) ;
#116 =( GEOMETRIC_REPRESENTATION_CONTEXT ( 3 ) GLOBAL_UNCERTAINTY_ASSIGNED_CONTEXT ( ( #271 ) ) GLOBAL_UNIT_ASSIGNED_CONTEXT ( ( #253, #138, #311 ) ) REPRESENTATION_CONTEXT ( 'NONE', 'WORKASPACE' ) );
#117 = CARTESIAN_POINT ( 'NONE',  ( 0.000000000000000000, 0.000000000000000000, 55.99999999999999289 ) ) ;
#118 = DIRECTION ( 'NONE',  ( 0.000000000000000000, 0.000000000000000000, 1.000000000000000000 ) ) ;
#119 = DIRECTION ( 'NONE',  ( 0.000000000000000000, 0.000000000000000000, 1.000000000000000000 ) ) ;
#120 = ORIENTED_EDGE ( 'NONE', *, *, #310, .F. ) ;
#121 = MECHANICAL_DESIGN_GEOMETRIC_PRESENTATION_REPRESENTATION (  '', ( #73 ), #57 ) ;
#122 = STYLED_ITEM ( 'NONE', ( #6 ), #32 ) ;
#123 =( NAMED_UNIT ( * ) PLANE_ANGLE_UNIT ( ) SI_UNIT ( $, .RADIAN. ) );
#124 = PRESENTATION_LAYER_ASSIGNMENT (  '', '', ( #73 ) ) ;
#125 =( GEOMETRIC_REPRESENTATION_CONTEXT ( 3 ) GLOBAL_UNCERTAINTY_ASSIGNED_CONTEXT ( ( #322 ) ) GLOBAL_UNIT_ASSIGNED_CONTEXT ( ( #175, #132, #23 ) ) REPRESENTATION_CONTEXT ( 'NONE', 'WORKASPACE' ) );
#126 = SURFACE_STYLE_FILL_AREA ( #259 ) ;
#127 = ADVANCED_FACE ( 'N', ( #221 ), #24, .T. ) ;
#128 = SURFACE_SIDE_STYLE ('',( #150 ) ) ;
#129 = SHAPE_DEFINITION_REPRESENTATION ( #189, #50 ) ;
#130 = COLOUR_RGB ( '',1.000000000000000000, 1.000000000000000000, 1.000000000000000000 ) ;
#131 = FACE_BOUND ( 'NONE', #197, .T. ) ;
#132 =( NAMED_UNIT ( * ) PLANE_ANGLE_UNIT ( ) SI_UNIT ( $, .RADIAN. ) );
#133 = CARTESIAN_POINT ( 'NONE',  ( -55.00000000000000000, 0.000000000000000000, 12.00000000000000000 ) ) ;
#134 = ORIENTED_EDGE ( 'NONE', *, *, #151, .T. ) ;
#135 =( NAMED_UNIT ( * ) SI_UNIT ( $, .STERADIAN. ) SOLID_ANGLE_UNIT ( ) );
#136 = DIRECTION ( 'NONE',  ( -0.000000000000000000, -0.000000000000000000, -1.000000000000000000 ) ) ;
#137 = AXIS2_PLACEMENT_3D ( 'NONE', #317, #119, #290 ) ;
#138 =( NAMED_UNIT ( * ) PLANE_ANGLE_UNIT ( ) SI_UNIT ( $, .RADIAN. ) );
#139 = DIRECTION ( 'NONE',  ( -0.000000000000000000, -0.000000000000000000, -1.000000000000000000 ) ) ;
#140 = MECHANICAL_DESIGN_GEOMETRIC_PRESENTATION_REPRESENTATION (  '', ( #278 ), #17 ) ;
#141 = ORIENTED_EDGE ( 'NONE', *, *, #206, .T. ) ;
#142 = EDGE_CURVE ( 'NONE', #204, #68, #246, .T. ) ;
#143 =( NAMED_UNIT ( * ) PLANE_ANGLE_UNIT ( ) SI_UNIT ( $, .RADIAN. ) );
#144 =( LENGTH_UNIT ( ) NAMED_UNIT ( * ) SI_UNIT ( .MILLI., .METRE. ) );
#145 = PRESENTATION_STYLE_ASSIGNMENT (( #158 ) ) ;
#146 = DIRECTION ( 'NONE',  ( 1.000000000000000000, 0.000000000000000000, 0.000000000000000000 ) ) ;
#147 =( GEOMETRIC_REPRESENTATION_CONTEXT ( 3 ) GLOBAL_UNCERTAINTY_ASSIGNED_CONTEXT ( ( #49 ) ) GLOBAL_UNIT_ASSIGNED_CONTEXT ( ( #167, #46, #69 ) ) REPRESENTATION_CONTEXT ( 'NONE', 'WORKASPACE' ) );
#148 =( NAMED_UNIT ( * ) SI_UNIT ( $, .STERADIAN. ) SOLID_ANGLE_UNIT ( ) );
#149 = COLOUR_RGB ( '',1.000000000000000000, 1.000000000000000000, 1.000000000000000000 ) ;
#150 = SURFACE_STYLE_FILL_AREA ( #176 ) ;
#151 = EDGE_CURVE ( 'NONE', #160, #243, #115, .T. ) ;
#152 = PRESENTATION_LAYER_ASSIGNMENT (  '', '', ( #81 ) ) ;
#153 = PRESENTATION_STYLE_ASSIGNMENT (( #91 ) ) ;
#154 = EDGE_LOOP ( 'NONE', ( #229, #63, #299, #78 ) ) ;
#155 = SURFACE_SIDE_STYLE ('',( #269 ) ) ;
#156 = ADVANCED_FACE ( 'NONE', ( #188 ), #37, .F. ) ;
#157 = STYLED_ITEM ( 'NONE', ( #145 ), #156 ) ;
#158 = SURFACE_STYLE_USAGE ( .BOTH. , #79 ) ;
#159 = DIRECTION ( 'NONE',  ( -1.000000000000000000, 0.000000000000000000, 0.000000000000000000 ) ) ;
#160 = VERTEX_POINT ( 'NONE', #31 ) ;
#161 = SURFACE_SIDE_STYLE ('',( #126 ) ) ;
#162 =( LENGTH_UNIT ( ) NAMED_UNIT ( * ) SI_UNIT ( .MILLI., .METRE. ) );
#163 = FACE_OUTER_BOUND ( 'NONE', #300, .T. ) ;
#164 = EDGE_CURVE ( 'NONE', #243, #228, #201, .T. ) ;
#165 = ORIENTED_EDGE ( 'NONE', *, *, #316, .F. ) ;
#166 =( LENGTH_UNIT ( ) NAMED_UNIT ( * ) SI_UNIT ( .MILLI., .METRE. ) );
#167 =( LENGTH_UNIT ( ) NAMED_UNIT ( * ) SI_UNIT ( .MILLI., .METRE. ) );
#168 =( NAMED_UNIT ( * ) PLANE_ANGLE_UNIT ( ) SI_UNIT ( $, .RADIAN. ) );
#169 = COLOUR_RGB ( '',1.000000000000000000, 1.000000000000000000, 1.000000000000000000 ) ;
#170 = PRESENTATION_LAYER_ASSIGNMENT (  '', '', ( #278 ) ) ;
#171 = AXIS2_PLACEMENT_3D ( 'NONE', #303, #225, #251 ) ;
#172 = SURFACE_STYLE_USAGE ( .BOTH. , #245 ) ;
#173 = PRESENTATION_STYLE_ASSIGNMENT (( #282 ) ) ;
#174 = ORIENTED_EDGE ( 'NONE', *, *, #164, .F. ) ;
#175 =( LENGTH_UNIT ( ) NAMED_UNIT ( * ) SI_UNIT ( .MILLI., .METRE. ) );
#176 = FILL_AREA_STYLE ('',( #101 ) ) ;
#177 = PRESENTATION_STYLE_ASSIGNMENT (( #240 ) ) ;
#178 = VECTOR ( 'NONE', #203, 1000.000000000000000 ) ;
#179 = DIRECTION ( 'NONE',  ( -1.000000000000000000, 0.000000000000000000, 0.000000000000000000 ) ) ;
#180 = AXIS2_PLACEMENT_3D ( 'NONE', #7, #185, #281 ) ;
#181 =( NAMED_UNIT ( * ) SI_UNIT ( $, .STERADIAN. ) SOLID_ANGLE_UNIT ( ) );
#182 = CARTESIAN_POINT ( 'NONE',  ( -55.00000000000000000, 0.000000000000000000, 12.00000000000000000 ) ) ;
#183 = CIRCLE ( 'NONE', #250, 42.50000000000000711 ) ;
#184 = VERTEX_POINT ( 'NONE', #62 ) ;
#185 = DIRECTION ( 'NONE',  ( -0.000000000000000000, -0.000000000000000000, -1.000000000000000000 ) ) ;
#186 =( NAMED_UNIT ( * ) PLANE_ANGLE_UNIT ( ) SI_UNIT ( $, .RADIAN. ) );
#187 =( LENGTH_UNIT ( ) NAMED_UNIT ( * ) SI_UNIT ( .MILLI., .METRE. ) );
#188 = FACE_OUTER_BOUND ( 'NONE', #320, .T. ) ;
#189 = PRODUCT_DEFINITION_SHAPE ( 'NONE', 'NONE',  #268 ) ;
#190 = FILL_AREA_STYLE ('',( #267 ) ) ;
#191 = UNCERTAINTY_MEASURE_WITH_UNIT (LENGTH_MEASURE( 1.000000000000000082E-05 ), #162, 'distance_accuracy_value', 'NONE');
#192 = SURFACE_SIDE_STYLE ('',( #22 ) ) ;
#193 = SURFACE_SIDE_STYLE ('',( #110 ) ) ;
#194 = UNCERTAINTY_MEASURE_WITH_UNIT (LENGTH_MEASURE( 1.000000000000000082E-05 ), #319, 'distance_accuracy_value', 'NONE');
#195 = STYLED_ITEM ( 'NONE', ( #74 ), #207 ) ;
#196 = ORIENTED_EDGE ( 'NONE', *, *, #151, .F. ) ;
#197 = EDGE_LOOP ( 'NONE', ( #47, #141 ) ) ;
#198 = CARTESIAN_POINT ( 'NONE',  ( 55.00000000000000000, 6.735557395310442615E-15, 12.00000000000000000 ) ) ;
#199 = STYLED_ITEM ( 'NONE', ( #275 ), #50 ) ;
#200 = PRESENTATION_STYLE_ASSIGNMENT (( #10 ) ) ;
#201 = CIRCLE ( 'NONE', #180, 42.50000000000000711 ) ;
#202 = MECHANICAL_DESIGN_GEOMETRIC_PRESENTATION_REPRESENTATION (  '', ( #103 ), #270 ) ;
#203 = DIRECTION ( 'NONE',  ( -0.000000000000000000, -0.000000000000000000, -1.000000000000000000 ) ) ;
#204 = VERTEX_POINT ( 'NONE', #133 ) ;
#205 =( LENGTH_UNIT ( ) NAMED_UNIT ( * ) SI_UNIT ( .MILLI., .METRE. ) );
#206 = EDGE_CURVE ( 'NONE', #228, #243, #277, .T. ) ;
#207 = ADVANCED_FACE ( 'NONE', ( #163 ), #302, .T. ) ;
#208 = DIRECTION ( 'NONE',  ( -0.000000000000000000, -0.000000000000000000, -1.000000000000000000 ) ) ;
#209 = FILL_AREA_STYLE_COLOUR ( '', #214 ) ;
#210 = CLOSED_SHELL ( 'NONE', ( #232, #234, #156, #207, #32, #254, #127 ) ) ;
#211 = CARTESIAN_POINT ( 'NONE',  ( -42.50000000000000711, 0.000000000000000000, 11.99999999999999645 ) ) ;
#212 = DIRECTION ( 'NONE',  ( -0.000000000000000000, -0.000000000000000000, -1.000000000000000000 ) ) ;
#213 = EDGE_CURVE ( 'NONE', #204, #273, #27, .T. ) ;
#214 = COLOUR_RGB ( '',1.000000000000000000, 1.000000000000000000, 1.000000000000000000 ) ;
#215 = DIRECTION ( 'NONE',  ( -1.000000000000000000, 0.000000000000000000, 0.000000000000000000 ) ) ;
#216 = CARTESIAN_POINT ( 'NONE',  ( 0.000000000000000000, 0.000000000000000000, 0.000000000000000000 ) ) ;
#217 = PRODUCT_RELATED_PRODUCT_CATEGORY ( 'part', '', ( #109 ) ) ;
#218 = SURFACE_STYLE_FILL_AREA ( #64 ) ;
#219 = PRODUCT_CONTEXT ( 'NONE', #95, 'mechanical' ) ;
#220 = COLOUR_RGB ( '',1.000000000000000000, 1.000000000000000000, 1.000000000000000000 ) ;
#221 = FACE_OUTER_BOUND ( 'NONE', #266, .T. ) ;
#222 = PRODUCT_DEFINITION_FORMATION_WITH_SPECIFIED_SOURCE ( 'ÈÎºÎ', '', #109, .NOT_KNOWN. ) ;
#223 = MANIFOLD_SOLID_BREP ( 'ÊäÈë1', #210 ) ;
#224 = DIRECTION ( 'NONE',  ( -1.000000000000000000, 0.000000000000000000, 0.000000000000000000 ) ) ;
#225 = DIRECTION ( 'NONE',  ( 0.000000000000000000, 0.000000000000000000, 1.000000000000000000 ) ) ;
#226 = AXIS2_PLACEMENT_3D ( 'NONE', #45, #118, #215 ) ;
#227 = DIRECTION ( 'NONE',  ( -0.000000000000000000, -0.000000000000000000, -1.000000000000000000 ) ) ;
#228 = VERTEX_POINT ( 'NONE', #238 ) ;
#229 = ORIENTED_EDGE ( 'NONE', *, *, #213, .T. ) ;
#230 = PRESENTATION_LAYER_ASSIGNMENT (  '', '', ( #195 ) ) ;
#231 = SURFACE_SIDE_STYLE ('',( #85 ) ) ;
#232 = ADVANCED_FACE ( 'NONE', ( #287 ), #293, .T. ) ;
#233 = CARTESIAN_POINT ( 'NONE',  ( 0.000000000000000000, 0.000000000000000000, 12.00000000000000000 ) ) ;
#234 = ADVANCED_FACE ( 'NONE', ( #96 ), #51, .T. ) ;
#235 = CARTESIAN_POINT ( 'NONE',  ( 0.000000000000000000, 0.000000000000000000, 11.99999999999999645 ) ) ;
#236 = ORIENTED_EDGE ( 'NONE', *, *, #75, .F. ) ;
#237 = AXIS2_PLACEMENT_3D ( 'NONE', #89, #42, #318 ) ;
#238 = CARTESIAN_POINT ( 'NONE',  ( 42.50000000000000711, 5.204748896376252474E-15, 11.99999999999999645 ) ) ;
#239 = FILL_AREA_STYLE_COLOUR ( '', #77 ) ;
#240 = SURFACE_STYLE_USAGE ( .BOTH. , #312 ) ;
#241 = UNCERTAINTY_MEASURE_WITH_UNIT (LENGTH_MEASURE( 1.000000000000000082E-05 ), #187, 'distance_accuracy_value', 'NONE');
#242 = AXIS2_PLACEMENT_3D ( 'NONE', #117, #263, #72 ) ;
#243 = VERTEX_POINT ( 'NONE', #211 ) ;
#244 = APPLICATION_PROTOCOL_DEFINITION ( 'draft international standard', 'automotive_design', 1998, #272 ) ;
#245 = SURFACE_SIDE_STYLE ('',( #298 ) ) ;
#246 = LINE ( 'NONE', #182, #178 ) ;
#247 = FILL_AREA_STYLE ('',( #67 ) ) ;
#248 =( GEOMETRIC_REPRESENTATION_CONTEXT ( 3 ) GLOBAL_UNCERTAINTY_ASSIGNED_CONTEXT ( ( #295 ) ) GLOBAL_UNIT_ASSIGNED_CONTEXT ( ( #82, #280, #135 ) ) REPRESENTATION_CONTEXT ( 'NONE', 'WORKASPACE' ) );
#249 = ORIENTED_EDGE ( 'NONE', *, *, #38, .T. ) ;
#250 = AXIS2_PLACEMENT_3D ( 'NONE', #12, #212, #16 ) ;
#251 = DIRECTION ( 'NONE',  ( 1.000000000000000000, 0.000000000000000000, -0.000000000000000000 ) ) ;
#252 = CARTESIAN_POINT ( 'NONE',  ( 0.000000000000000000, 0.000000000000000000, 55.99999999999999289 ) ) ;
#253 =( LENGTH_UNIT ( ) NAMED_UNIT ( * ) SI_UNIT ( .MILLI., .METRE. ) );
#254 = ADVANCED_FACE ( 'NONE', ( #114 ), #66, .T. ) ;
#255 = ORIENTED_EDGE ( 'NONE', *, *, #256, .F. ) ;
#256 = EDGE_CURVE ( 'NONE', #184, #160, #183, .T. ) ;
#257 = CARTESIAN_POINT ( 'NONE',  ( 0.000000000000000000, 0.000000000000000000, 12.00000000000000000 ) ) ;
#258 = CARTESIAN_POINT ( 'NONE',  ( 0.000000000000000000, 0.000000000000000000, 55.99999999999999289 ) ) ;
#259 = FILL_AREA_STYLE ('',( #55 ) ) ;
#260 = COLOUR_RGB ( '',1.000000000000000000, 1.000000000000000000, 1.000000000000000000 ) ;
#261 = PRESENTATION_STYLE_ASSIGNMENT (( #284 ) ) ;
#262 = CARTESIAN_POINT ( 'NONE',  ( 0.000000000000000000, 0.000000000000000000, 55.99999999999999289 ) ) ;
#263 = DIRECTION ( 'NONE',  ( -0.000000000000000000, -0.000000000000000000, -1.000000000000000000 ) ) ;
#264 = AXIS2_PLACEMENT_3D ( 'NONE', #233, #208, #159 ) ;
#265 = CARTESIAN_POINT ( 'NONE',  ( 42.50000000000000711, 5.204748896376252474E-15, 55.99999999999999289 ) ) ;
#266 = EDGE_LOOP ( 'NONE', ( #80, #255 ) ) ;
#267 = FILL_AREA_STYLE_COLOUR ( '', #220 ) ;
#268 = PRODUCT_DEFINITION ( 'Î´Öª', '', #222, #292 ) ;
#269 = SURFACE_STYLE_FILL_AREA ( #112 ) ;
#270 =( GEOMETRIC_REPRESENTATION_CONTEXT ( 3 ) GLOBAL_UNCERTAINTY_ASSIGNED_CONTEXT ( ( #102 ) ) GLOBAL_UNIT_ASSIGNED_CONTEXT ( ( #205, #279, #181 ) ) REPRESENTATION_CONTEXT ( 'NONE', 'WORKASPACE' ) );
#271 = UNCERTAINTY_MEASURE_WITH_UNIT (LENGTH_MEASURE( 1.000000000000000082E-05 ), #253, 'distance_accuracy_value', 'NONE');
#272 = APPLICATION_CONTEXT ( 'automotive_design' ) ;
#273 = VERTEX_POINT ( 'NONE', #13 ) ;
#274 = PRESENTATION_LAYER_ASSIGNMENT (  '', '', ( #122 ) ) ;
#275 = PRESENTATION_STYLE_ASSIGNMENT (( #172 ) ) ;
#276 = SURFACE_STYLE_USAGE ( .BOTH. , #128 ) ;
#277 = CIRCLE ( 'NONE', #107, 42.50000000000000711 ) ;
#278 = STYLED_ITEM ( 'NONE', ( #261 ), #223 ) ;
#279 =( NAMED_UNIT ( * ) PLANE_ANGLE_UNIT ( ) SI_UNIT ( $, .RADIAN. ) );
#280 =( NAMED_UNIT ( * ) PLANE_ANGLE_UNIT ( ) SI_UNIT ( $, .RADIAN. ) );
#281 = DIRECTION ( 'NONE',  ( -1.000000000000000000, 0.000000000000000000, 0.000000000000000000 ) ) ;
#282 = SURFACE_STYLE_USAGE ( .BOTH. , #161 ) ;
#283 = EDGE_LOOP ( 'NONE', ( #249, #44, #174, #196 ) ) ;
#284 = SURFACE_STYLE_USAGE ( .BOTH. , #155 ) ;
#285 =( NAMED_UNIT ( * ) PLANE_ANGLE_UNIT ( ) SI_UNIT ( $, .RADIAN. ) );
#286 = UNCERTAINTY_MEASURE_WITH_UNIT (LENGTH_MEASURE( 1.000000000000000082E-05 ), #166, 'distance_accuracy_value', 'NONE');
#287 = FACE_OUTER_BOUND ( 'NONE', #154, .T. ) ;
#288 = ORIENTED_EDGE ( 'NONE', *, *, #5, .F. ) ;
#289 = DIRECTION ( 'NONE',  ( -0.000000000000000000, -0.000000000000000000, -1.000000000000000000 ) ) ;
#290 = DIRECTION ( 'NONE',  ( -1.000000000000000000, 0.000000000000000000, 0.000000000000000000 ) ) ;
#291 = PRESENTATION_LAYER_ASSIGNMENT (  '', '', ( #103 ) ) ;
#292 = PRODUCT_DEFINITION_CONTEXT ( 'detailed design', #272, 'design' ) ;
#293 = CYLINDRICAL_SURFACE ( 'NONE', #237, 55.00000000000000000 ) ;
#294 = ORIENTED_EDGE ( 'NONE', *, *, #206, .F. ) ;
#295 = UNCERTAINTY_MEASURE_WITH_UNIT (LENGTH_MEASURE( 1.000000000000000082E-05 ), #82, 'distance_accuracy_value', 'NONE');
#296 = ORIENTED_EDGE ( 'NONE', *, *, #310, .T. ) ;
#297 = AXIS2_PLACEMENT_3D ( 'NONE', #257, #136, #308 ) ;
#298 = SURFACE_STYLE_FILL_AREA ( #247 ) ;
#299 = ORIENTED_EDGE ( 'NONE', *, *, #321, .T. ) ;
#300 = EDGE_LOOP ( 'NONE', ( #236, #100, #88, #296 ) ) ;
#301 = CARTESIAN_POINT ( 'NONE',  ( 55.00000000000000000, 6.735557395310442615E-15, 0.000000000000000000 ) ) ;
#302 = CYLINDRICAL_SURFACE ( 'NONE', #297, 55.00000000000000000 ) ;
#303 = CARTESIAN_POINT ( 'NONE',  ( 0.000000000000000000, 0.000000000000000000, 12.00000000000000000 ) ) ;
#304 = CARTESIAN_POINT ( 'NONE',  ( -42.50000000000000711, 0.000000000000000000, 55.99999999999999289 ) ) ;
#305 = DIRECTION ( 'NONE',  ( 0.000000000000000000, 0.000000000000000000, 1.000000000000000000 ) ) ;
#306 = VECTOR ( 'NONE', #289, 1000.000000000000000 ) ;
#307 = ORIENTED_EDGE ( 'NONE', *, *, #321, .F. ) ;
#308 = DIRECTION ( 'NONE',  ( -1.000000000000000000, 0.000000000000000000, 0.000000000000000000 ) ) ;
#309 = SURFACE_STYLE_USAGE ( .BOTH. , #231 ) ;
#310 = EDGE_CURVE ( 'NONE', #68, #20, #1, .T. ) ;
#311 =( NAMED_UNIT ( * ) SI_UNIT ( $, .STERADIAN. ) SOLID_ANGLE_UNIT ( ) );
#312 = SURFACE_SIDE_STYLE ('',( #105 ) ) ;
#313 = LINE ( 'NONE', #198, #43 ) ;
#314 = DIRECTION ( 'NONE',  ( -1.000000000000000000, 0.000000000000000000, 0.000000000000000000 ) ) ;
#315 = FILL_AREA_STYLE ('',( #239 ) ) ;
#316 = EDGE_CURVE ( 'NONE', #184, #228, #8, .T. ) ;
#317 = CARTESIAN_POINT ( 'NONE',  ( 0.000000000000000000, 0.000000000000000000, 0.000000000000000000 ) ) ;
#318 = DIRECTION ( 'NONE',  ( -1.000000000000000000, 0.000000000000000000, 0.000000000000000000 ) ) ;
#319 =( LENGTH_UNIT ( ) NAMED_UNIT ( * ) SI_UNIT ( .MILLI., .METRE. ) );
#320 = EDGE_LOOP ( 'NONE', ( #120, #307 ) ) ;
#321 = EDGE_CURVE ( 'NONE', #20, #68, #56, .T. ) ;
#322 = UNCERTAINTY_MEASURE_WITH_UNIT (LENGTH_MEASURE( 1.000000000000000082E-05 ), #175, 'distance_accuracy_value', 'NONE');
#323 = AXIS2_PLACEMENT_3D ( 'NONE', #262, #139, #314 ) ;
#324 =( GEOMETRIC_REPRESENTATION_CONTEXT ( 3 ) GLOBAL_UNCERTAINTY_ASSIGNED_CONTEXT ( ( #286 ) ) GLOBAL_UNIT_ASSIGNED_CONTEXT ( ( #166, #285, #40 ) ) REPRESENTATION_CONTEXT ( 'NONE', 'WORKASPACE' ) );
#325 = CARTESIAN_POINT ( 'NONE',  ( 0.000000000000000000, 0.000000000000000000, 12.00000000000000000 ) ) ;
ENDSEC;
END-ISO-10303-21;
